Brian Setzer - This Cat's On A Hot Tin Roof - intro

(/) Slide Up  (\) Slide Down  (h) Hammer On  (p) Pull Off  (b) Bend (r) Release (v) Vibrato


E|--------------|--8--------------8--------------|--8----------------------|--8-------------
B|-------8--10--|----------8--10----------8--10--|------------------8--10--|-----11--10--8--
G|--8/9---------|-----8/9------------8/9---------|-------------8/9---------|----------------
D|--------------|--------------------------------|-------------------------|----------------
A|--------------|--------------------------------|-----10--10--------------|----------------
E|--------------|--------------------------------|-----8---8---------------|----------------



E|--10--8---------|---------------|----------------------------|--------------------------|--
B|---------10--8--|--11--11--7-8--|------7--10-8------7--10-8--|------7--10-8------8--10--|--
G|----------------|--11--10--7/8--|------7--10r8------7--10r8--|------7--10r8------8--10--|--
D|----------------|--10--9--------|--10-----------10-----------|--10-----------10---------|--
A|----------------|--11--10-------|----------------------------|--------------------------|--
E|----------------|---------------|----------------------------|--------------------------|--



E|---------------------|----------------------|-------------8---------8--|--
B|--11-----11--11--11--|--11-----------10--8--|---------15---------------|--
G|--10b12--12--12--12--|--12r10r8------10--8--|--14b16---------11b10-----|--
D|---------------------|-----------10---------|--------------------------|--
A|---------------------|----------------------|--------------------------|--
E|---------------------|----------------------|--------------------------|--



E|--------------------------|------------------|--------------|--
B|---------------10--8------|------------------|--------------|--
G|--11r10r8------10--8------|------------------|------11--10--|--
D|-----------10---------10--|--10--10--10--10--|--10--10--9---|--
A|--------------------------|------7---8---9---|--10--11--10--|--
E|--------------------------|------------------|--------------|--



E|--
B|--
G|--
D|--
A|--
E|--
http://www.guitartabcreator.com
Guitar Tab Creator is intended to store guitar tab created through the tool. It currently does not support in-line text editing. Any text you place in here will be lost. If you need to comment on your tab, please use the "Tab Notes" section located below.