The Beatles - One After 909 - solo

(/) Slide Up  (\) Slide Down  (h) Hammer On  (p) Pull Off  (b) Bend (r) Release (v) Vibrato


E|--7---------|--7----7--7--|--10b11--7---------|--------|-----------|-----------|--
B|--7--10b11--|-------------|---------7--10--7--|--------|-----------|-----------|--
G|------------|-------------|-------------------|--9b11--|--11b9--7--|-----7--9--|--
D|------------|-------------|-------------------|--------|-----------|--9--------|--
A|------------|-------------|-------------------|--------|-----------|-----------|--
E|------------|-------------|-------------------|--------|-----------|-----------|--



E|--------7---------10--|--------------------------|----------------------|--
B|-----------7--10------|--------------------------|----------------------|--
G|--9b11----------------|--10b9--9r7---------------|----------------------|--
D|----------------------|-------------9--7---------|-------------------7--|--
A|----------------------|-------------------9r7\5--|--6-----------7/9-----|--
E|----------------------|--------------------------|-----7--5--7----------|--



E|----------------|------------------|--------------|-------------------------|--
B|----------------|----------7-8-----|--9-10--------|------15--17--17b19--19--|--
G|----------------|--9r7-----7b8-----|--9b10--7-----|--16---------------------|--
D|--7-----7-------|-------9-------9--|-----------9--|-------------------------|--
A|-----9-----9\7--|------------------|--------------|-------------------------|--
E|----------------|------------------|--------------|-------------------------|--



E|-------------------------|-----------------------------|-------------------------|--
B|--19--19--19b17--15------|--15b16---------12-----------|-----------7-------------|--
G|---------------------16--|---------16\14------11\7-----|--7--9b11-----9b10--7b8--|--
D|-------------------------|--------------------------9--|-------------------------|--
A|-------------------------|-----------------------------|-------------------------|--
E|-------------------------|-----------------------------|-------------------------|--



E|------------------------|-----------|--|--
B|------------------------|-----------|--|--
G|------------------------|--------9--|--|--
D|--9--9----9--7----7--9--|--------9--|--|--
A|------------------------|--9/11-----|--|--
E|------------------------|-----------|--|--



E|--
B|--
G|--
D|--
A|--
E|--
http://www.guitartabcreator.com
Guitar Tab Creator is intended to store guitar tab created through the tool. It currently does not support in-line text editing. Any text you place in here will be lost. If you need to comment on your tab, please use the "Tab Notes" section located below.