The Beatles - If I Fell - chords used

(/) Slide Up  (\) Slide Down  (h) Hammer On  (p) Pull Off  (b) Bend (r) Release (v) Vibrato


E|--6----5----4----6----6----2----0-------|--2--0--2--0--0----2--0--2--0--0--|--2--3--0--|--
B|--7----7----6----6----7----3----3----2--|--3--0--2--3--2----3--0--2--3--2--|--3--3--2--|--
G|--8----7----6----6----8----2----0----2--|--2--0--2--0--2----2--0--2--0--2--|--2--3--2--|--
D|--8----7----6----8----8----0----2----2--|--0--2--4--2--2----0--2--4--2--2--|--0--5--2--|--
A|--6----5----4----8----6---------2----0--|-----2--4--2--0-------2--4--2--0--|-----5--0--|--
E|-----------------6--------------0-------|-----0--2--0----------0--2--0-----|-----3-----|--



E|--2--0--2--0--0----2--0--2--0--0--|-----3--3--2--3--2--0--2--0--0--|--
B|--3--0--2--3--2----3--0--2--3--2--|--3--3--3--3--2--3--0--2--3--2--|--
G|--2--0--2--0--2----2--0--2--0--2--|--5--4--3--2--2--2--0--2--0--2--|--
D|--0--2--4--2--2----0--2--4--2--2--|--4--5--5--0--2--0--2--4--2--2--|--
A|-----2--4--2--0-------2--4--2--0--|--5--5--5-----0-----2--4--2--0--|--
E|-----0--2--0----------0--2--0-----|-----3--3-----------0--2--0-----|--



E|--2--0--2--0--0--2--3--2--3--2--|--
B|--3--0--2--3--2--3--3--3--3--3--|--
G|--2--0--2--0--2--2--3--2--3--2--|--
D|--0--2--4--2--2--0--5--0--5--0--|--
A|-----2--4--2--0-----5-----5-----|--
E|-----0--2--0--------3-----3-----|--



E|--
B|--
G|--
D|--
A|--
E|--
http://www.guitartabcreator.com
Guitar Tab Creator is intended to store guitar tab created through the tool. It currently does not support in-line text editing. Any text you place in here will be lost. If you need to comment on your tab, please use the "Tab Notes" section located below.