The Beatles - I Dig A Pony style lick tablature

(/) Slide Up  (\) Slide Down  (h) Hammer On  (p) Pull Off  (b) Bend (r) Release (v) Vibrato


E|---------------------------------------------------------------------------------------
B|--2---------------------------------------------------------------------------2--2--2--
G|--2------------------2--------------------------------------------------7-----2--2--2--
D|--2----------2--2h4-----4--2-------2----------------5-------------7--9-----9--2--2--2--
A|--0--0--3h4-------------------3h4-------------5--7-----7--5--7/9--------------0--0--0--
E|--------------------------------------3--5/7-------------------------------------------



E|------------------------------------------------------------------------
B|-----------------------------2------------------------------------------
G|---------------2-------------2------------------------------------7-----
D|-------2--2h4-----4--2-------2----------------5-------------7--9-----9--
A|--3h4-------------------3h4-------------5--7-----7--5--7/9--------------
E|--------------------------------3--5/7----------------------------------



E|-----------------------------------------
B|--2--2--2-----------------------------2--
G|--2--2--2---------------2-------------2--
D|--2--2--2-------2--2h4-----4--2-------2--
A|--0--0--0--3h4-------------------3h4--0--
E|-----------------------------------------



E|--|--
B|--|--
G|--|--
D|--|--
A|--|--
E|--|--
http://www.guitartabcreator.com
Guitar Tab Creator is intended to store guitar tab created through the tool. It currently does not support in-line text editing. Any text you place in here will be lost. If you need to comment on your tab, please use the "Tab Notes" section located below.