The Beatles - This Boy - all the chords - short version

(/) Slide Up  (\) Slide Down  (h) Hammer On  (p) Pull Off  (b) Bend (r) Release (v) Vibrato


E|-----------2--2--0--0--|--2--2--0--0--2--5--|--3--2--2--5--|--
B|--3--3--3--3--3--3--2--|--3--3--3--2--3--5--|--3--2--3--5--|--
G|--2--2--2--2--4--0--2--|--2--4--0--2--2--5--|--4--3--4--5--|--
D|--4--2--4--0--4--2--2--|--0--4--2--2--0--4--|--5--4--4--4--|--
A|--0--0--0-----2--2--0--|-----2--2--0-----5--|--5--4--2--5--|--
E|-----------------------|-----------------5--|--3--2--------|--



E|--3--7--5--5--|--2--2----10--9---7--9---2--2-5--|--
B|--3--7--5--8--|--3--3---------------------------|--
G|--4--7--6--6--|--2--4---------------------------|--
D|--5--6--7--7--|--0--4----12--11--9--11--4--4/7--|--
A|--5--7--7--7--|-----2---------------------------|--
E|--3-----5--5--|---------------------------------|--
http://www.guitartabcreator.com
Guitar Tab Creator is intended to store guitar tab created through the tool. It currently does not support in-line text editing. Any text you place in here will be lost. If you need to comment on your tab, please use the "Tab Notes" section located below.