Beatles - All My Loving - live version

(/) Slide Up  (\) Slide Down  (h) Hammer On  (p) Pull Off  (b) Bend (r) Release (v) Vibrato


E|--2-----4--4--4--2--2--2--|--2-----4--4--5--7--0--|--
B|--2--4--5--5--5--2--3--0--|--2--4--5--5--5--7--0--|--
G|--2--4--4--6--6--2--2--2--|--2--4--4--6--6--8--1--|--
D|--4--4--6--6--7--4--0--1--|--4--4--6--6--7--9--2--|--
A|--4--2--4--4--7--4-----2--|--4--2--4--4--7--9--2--|--
E|--2-----------5--2--------|--2-----------5--7--0--|--



E|--2-----4--4--5--5-----7--|--2-----4--4--5--7--0------------------------|--4--4--4--|--
B|--2--4--5--5--5--7--7--7--|--2--4--5--5--5--7--0--0-------0-------0-----|--5--5--5--|--
G|--2--4--4--6--6--6--7--8--|--2--4--4--6--6--8--1-----0h1-----0h1--------|--6--5--4--|--
D|--4--4--6--6--7--7--7--9--|--4--4--6--6--7--9--2---------------------2--|--6--6--6--|--
A|--4--2--4--4--7-----5--9--|--4--2--4--4--7--9--2------------------------|-----------|--
E|--2-----------5--------7--|--2-----------5--7--0------------------------|-----------|--



E|--------------5-----9--7--5--4-----4--7--5--4--2-----2--9-------9----------------------------
B|-----------------5--------------5-----9--7--5-----2---------10---------0-------0-------0-----
G|--------------6-----9--8--6--4-----4--9--8--4--2-----2--11------11--1-----0h1-----0h1--------
D|-----------------7--------------6-----------------4---------11------2---------------------2--
A|--2------------------------------------------------------------------------------------------
E|-----0--2--4---------------------------------------------------------------------------------



E|--
B|--
G|--
D|--
A|--
E|--
http://www.guitartabcreator.com
Guitar Tab Creator is intended to store guitar tab created through the tool. It currently does not support in-line text editing. Any text you place in here will be lost. If you need to comment on your tab, please use the "Tab Notes" section located below.