Alvin Lee - Ten Years After style licks

(/) Slide Up  (\) Slide Down  (h) Hammer On  (p) Pull Off  (b) Bend (r) Release (v) Vibrato


E|--10p7---------10p7---------10p7---------10p7---------10p7-------|--
B|--------9p7----------9p7----------9p7----------9p7----------9p7--|--
G|-----------------------------------------------------------------|--
D|-----------------------------------------------------------------|--
A|-----------------------------------------------------------------|--
E|-----------------------------------------------------------------|--



E|--10p7--9p7-----7----10p7--9p7-----7----10p7--9p7-----7----10p7--9p7-----7--|--
B|-------------9------------------9------------------9------------------9-----|--
G|----------------------------------------------------------------------------|--
D|----------------------------------------------------------------------------|--
A|----------------------------------------------------------------------------|--
E|----------------------------------------------------------------------------|--



E|--
B|--
G|--
D|--
A|--
E|--
http://www.guitartabcreator.com
Guitar Tab Creator is intended to store guitar tab created through the tool. It currently does not support in-line text editing. Any text you place in here will be lost. If you need to comment on your tab, please use the "Tab Notes" section located below.