Allman Brothers - Kind of Bird style intro tab

(/) Slide Up  (\) Slide Down  (h) Hammer On  (p) Pull Off  (b) Bend (r) Release (v) Vibrato


E|---------11-------------------------------------------------------8--10b11--
B|-------------13v----7/8--11--10--------------------------------8------------
G|--11h12--------------------------8--10------8--------8----------------------
D|----------------------------------------10--------------10v-----------------
A|-----------------------------------------------9h10-------------------------
E|----------------------------------------------------------------------------



E|--13--10--11------------------------------------------------------------------------
B|--------------13------10--11-------------------------------------------------8--10--
G|------------------12----------12------8--11\10--8------8\7v--------7--8--10---------
D|----------------------------------10---------------10--------8h10-------------------
A|------------------------------------------------------------------------------------
E|------------------------------------------------------------------------------------



E|-------------------------------------------------------------------------|--
B|--11--8--10------8-------------------------------------------------------|--
G|------8--10--10--8--8---10v-------11--10---------10-----10--9---------8--|--
D|--------------------10---------9----------9--12------7---------7--10-----|--
A|-------------------------------------------------------------------------|--
E|-------------------------------------------------------------------------|--



E|------------------------------------------|--
B|--------------------------------11--11----|--
G|--8--7--5-----7--5--------------10--10----|--
D|-----------6--------6--4--5--5--9---9-----|--
A|--------------------------------10--10----|--
E|------------------------------------------|--



E|--
B|--
G|--
D|--
A|--
E|--
http://www.guitartabcreator.com
Guitar Tab Creator is intended to store guitar tab created through the tool. It currently does not support in-line text editing. Any text you place in here will be lost. If you need to comment on your tab, please use the "Tab Notes" section located below.