Allman Brothers "Blue Sky" style licks

(/) Slide Up  (\) Slide Down  (h) Hammer On  (p) Pull Off  (b) Bend (r) Release (v) Vibrato


E|-------------------------------------------------------------16--17p16--17p16----------
B|--------12--14p12--12v--12h14p12--12v--12--12--14p12--14/17--------------------17--17--
G|--7/13---------------------------------------------------------------------------------
D|---------------------------------------------------------------------------------------
A|---------------------------------------------------------------------------------------
E|---------------------------------------------------------------------------------------



E|------16h17p16------19p16------|------16h17p16------19p16------|------16h17p16------19p16------
B|--17------------17---------17--|--17------------17---------17--|--17------------17---------17--
G|-------------------------------|-------------------------------|-------------------------------
D|-------------------------------|-------------------------------|-------------------------------
A|-------------------------------|-------------------------------|-------------------------------
E|-------------------------------|-------------------------------|-------------------------------



E|------16h17p16------19p16----------16--17--17p16--------------------------------|--
B|--17------------17---------17--17-----------------17--17--17p16--16--16--16\12--|--
G|--------------------------------------------------------------------------------|--
D|--------------------------------------------------------------------------------|--
A|--------------------------------------------------------------------------------|--
E|--------------------------------------------------------------------------------|--



E|--------------------------------------------------------------------------|--
B|--12--12--12\10--10--10--10\9--------10p9----------------9--10p9----------|--
G|-------------------------------11p9--------11--9--9--11-----------11--9v--|--
D|--------------------------------------------------------------------------|--
A|--------------------------------------------------------------------------|--
E|--------------------------------------------------------------------------|--



E|--
B|--
G|--
D|--
A|--
E|--
http://www.guitartabcreator.com
Guitar Tab Creator is intended to store guitar tab created through the tool. It currently does not support in-line text editing. Any text you place in here will be lost. If you need to comment on your tab, please use the "Tab Notes" section located below.