Allman Brothers Band - Seven Turns solo

(/) Slide Up  (\) Slide Down  (h) Hammer On  (p) Pull Off  (b) Bend (r) Release (v) Vibrato


E|----------------------------------7--8--7h8r7--|-----------|------------------7--8--10b12b10--
B|--10b12r10r8--10b12--12b10r8--10---------------|--10--10v--|--10b12b10r8--10------------------
G|-----------------------------------------------|-----------|----------------------------------
D|-----------------------------------------------|-----------|----------------------------------
A|-----------------------------------------------|-----------|----------------------------------
E|-----------------------------------------------|-----------|----------------------------------



E|--10v--|--8v--8--10/12--12v--|--12r10--10v-----------------|------------------------|--
B|-------|---------------------|--------------12b10r8--8h10--|--10r8--8v--8-----------|--
G|-------|---------------------|-----------------------------|---------------9\7--7v--|--
D|-------|---------------------|-----------------------------|------------------------|--
A|-------|---------------------|-----------------------------|------------------------|--
E|-------|---------------------|-----------------------------|------------------------|--



E|-----------------|----------------------------8--8--10--|--10r8--8------------------|--
B|-------8--8--10--|--10b11r10r8--8--10--10b12------------|-----------10b12--12b10r8--|--
G|--7/9------------|--------------------------------------|---------------------------|--
D|-----------------|--------------------------------------|---------------------------|--
A|-----------------|--------------------------------------|---------------------------|--
E|-----------------|--------------------------------------|---------------------------|--



E|--8r7------------10--12--15r14--10----------------|-----------------|---------|--
B|-------8--10/12---------------------13r12--8--7v--|--------7--8b10--|--8--8v--|--
G|--------------------------------------------------|--8--9-----------|---------|--
D|--------------------------------------------------|-----------------|---------|--
A|--------------------------------------------------|-----------------|---------|--
E|--------------------------------------------------|-----------------|---------|--



E|------------------7-----|------|----------|-------|--
B|--12\10--8--10r7--------|------|--7v--8v--|--3-5--|--
G|---------------------8--|--9v--|----------|--3-5--|--
D|------------------------|------|----------|--3/5--|--
A|------------------------|------|----------|-------|--
E|------------------------|------|----------|-------|--



E|--
B|--
G|--
D|--
A|--
E|--
http://www.guitartabcreator.com
Guitar Tab Creator is intended to store guitar tab created through the tool. It currently does not support in-line text editing. Any text you place in here will be lost. If you need to comment on your tab, please use the "Tab Notes" section located below.