ABB - Jessica style intro

(/) Slide Up  (\) Slide Down  (h) Hammer On  (p) Pull Off  (b) Bend (r) Release (v) Vibrato


E|---------9--10--10b12--12r10--9-----------------------------9--10v--9-------------------------
B|-----10--------------------------10--------------6v-----10-------------10---------------6-----
G|--9----------------------------------9v--7r6--7------9---------------------9--7v--6--7--------
D|-------------------------------------------------------------------------------------------7--
A|----------------------------------------------------------------------------------------------
E|----------------------------------------------------------------------------------------------



E|---------9--10--10b12--12r10--9----------------------------9--10v--9-------------------------
B|-----10--------------------------10-------------6v-----10-------------10---------------6-----
G|--9----------------------------------9--7r6--7------9---------------------9--7v--6--7--------
D|------------------------------------------------------------------------------------------7--
A|---------------------------------------------------------------------------------------------
E|---------------------------------------------------------------------------------------------



E|---------------------2v---------------5--7--5v--
B|------------2--3--5------2--5h7r5--7------------
G|--2h4r2--4--------------------------------------
D|------------------------------------------------
A|------------------------------------------------
E|------------------------------------------------
http://www.guitartabcreator.com
Guitar Tab Creator is intended to store guitar tab created through the tool. It currently does not support in-line text editing. Any text you place in here will be lost. If you need to comment on your tab, please use the "Tab Notes" section located below.