Song 1

(/) Slide Up  (\) Slide Down  (h) Hammer On  (p) Pull Off  (b) Bend (r) Release (v) Vibrato


E|------------------------------------------------
B|------------------------------------------------
G|------------------------------------------------
D|--------7---------------------------------------
A|-----------------8--------7--------5--------7v--
E|--5--5-----5--5-----5--5-----5--5-----5--5------



E|------------------------------------------
B|------------------------------------------
G|------------------------------------------
D|--------7------------------------5--7--7--
A|-----------------8--------5h7p5-----------
E|--5--5-----5--5-----5--5------------------



E|-----------------------------------------------
B|-----------------------------------------------
G|-----------------------------------------------
D|--------7--------------------------------------
A|-----------------8--------7--------5--------7--
E|--5--5-----5--5-----5--5-----5--5-----5--5-----



E|-------------------------------------------
B|-------------------------------------------
G|-------------------------------------------
D|--------7----------------------------------
A|-----------------8---------------3h5h7--7--
E|--5--5-----5--5-----5--5--5h7h8---------5--
http://www.guitartabcreator.com
Guitar Tab Creator is intended to store guitar tab created through the tool. It currently does not support in-line text editing. Any text you place in here will be lost. If you need to comment on your tab, please use the "Tab Notes" section located below.