Never Hello

(/) Slide Up  (\) Slide Down  (h) Hammer On  (p) Pull Off  (b) Bend (r) Release (v) Vibrato


E|-------------------------------------------------|--
B|-------------------------------------------------|--
G|-------------------------------------------------|--
D|-------------------------------------------------|--
A|-------------------------------------------------|--
E|--4--4--4--4--5--5--5--0--0--0--0--0--0--0--0----|--



E|----------------------------------------------------------------------------------|--
B|----------------------------------------------------------------------------------|--
G|----------------------------------------------------------------------------------|--
D|----------------------------------------------------------------------------------|--
A|----------------------------------------------------------------------------------|--
E|--4--4--4--4--5--5--5--0--0--0--0--0--0--0--0--4--0--5--5--5--5--5--5--5--5--5----|--



E|--------------|----------------|----------------|----------------|--
B|--------------|----------------|----------------|----------------|--
G|--------------|----------------|----------------|----------------|--
D|--------------|----------------|----------------|----------------|--
A|--------------|----------------|----------------|----------------|--
E|--5--5--5--5--|--0--2--4--5----|--5--5--5--5----|--0--2--4--5----|--



E|----------------------|------------------------------------------|--
B|----------------------|------------------------------------------|--
G|----------------------|------------------------------------------|--
D|----------------------|------------------------------------------|--
A|----------------------|------------------------------------------|--
E|--9--9--9--9--7--7----|--7--7--7--7----7/9--9--9--9\5----5--5----|--



E|---------------------
B|---------------------
G|---------------------
D|-----------------11--
A|--------6--7--9------
E|--7--9---------------



E|-------------------------------------------|--------------------------------------
B|-------------------------------------------|--------------------------------------
G|-------------------------------------------|--------------------------------------
D|-------------------------------------------|--------------------------------------
A|-------------------------------------------|--------------------------------------
E|--4--4--4--4--5--5--5--0--0--0--0--0--0----|--4--4--4--4--7--7--7--7--5--5--5--5--
http://www.guitartabcreator.com
Guitar Tab Creator is intended to store guitar tab created through the tool. It currently does not support in-line text editing. Any text you place in here will be lost. If you need to comment on your tab, please use the "Tab Notes" section located below.