Luminance - Bass Tab

(/) Slide Up  (\) Slide Down  (h) Hammer On  (p) Pull Off  (b) Bend (r) Release (v) Vibrato


E|-----------------------|-----------------|-----------------------------------------|-----
B|-----------------------|-----------------|-----------------------------------------|-----
G|-----------------------|-----------------|-----------------------------------------|-----
D|-----------------6--5--|--6--5-----------|-----------------------------------------|-----
A|-----------------------|--------6-----3--|--------------4--4--4--6--6--6--6--6--6--|-----
E|--6--6--4--6--6--------|-----------4-----|--6--6--6--6-----------------------------|-----



E|-------------------------------------|-----------------------
B|-------------------------------------|-----------------------
G|-------------------------------------|-----------------------
D|-------------------------------------|-----------------------
A|--1--1--------------6--6-----4--4----|--1--1--------------6--
E|--------1--1----/6--------6----------|--------1--1----/6-----



E|--------------------------------------------|--------------------------------------------|--
B|--------------------------------------------|--------------------------------------------|--
G|--------------------------------------------|--------------------------------------------|--
D|--------------------------------------------|--------------------------------------------|--
A|--4--4----4--------------6--6----6----------|--4--4----4----------------6--6-----6--6----|--
E|-------------1--1----/6-------------4--4----|-------------1--1------/6--------6----------|--



E|-------------------------------|----------------------|-------------------------------|--
B|-------------------------------|----------------------|-------------------------------|--
G|-------------------------------|----------------------|-------------------------------|--
D|-------------------------------|----------------------|-------------------------------|--
A|-----3--4--4--4--4--4--3-------|--------3--4--3-------|-----3--4--4--4--4--4--3-------|--
E|--4-----------------------4----|--4--6-----------1----|--4-----------------------4----|--



E|----------------------------------------------|--
B|----------------------------------------------|--
G|----------------------------------------------|--
D|----------------------------------------------|--
A|--------3--4--3--4--3-------------------------|--
E|--4--6-----------------3--3--3--3--3--3--3----|--



E|------------------------|-----------------
B|------------------------|-----------------
G|------------------------|-----------------
D|------------------------|-----------------
A|------------------------|-----3--4--1--6--
E|--2--2----2--2--2--1----|--4--------------
http://www.guitartabcreator.com
Guitar Tab Creator is intended to store guitar tab created through the tool. It currently does not support in-line text editing. Any text you place in here will be lost. If you need to comment on your tab, please use the "Tab Notes" section located below.