If You'd Only Understand - Bass Tab

(/) Slide Up  (\) Slide Down  (h) Hammer On  (p) Pull Off  (b) Bend (r) Release (v) Vibrato


E|-------------------------------------------------------------------
B|-------------------------------------------------------------------
G|-------------------------------------------------------------------
D|-------------------------------------------------------------------
A|-----------------------------------------7--7--7--7--7--5----------
E|--5--5--5----5----5--2--5--5--2--5----5----------------------7--7--



E|------------------------------------------|--
B|------------------------------------------|--
G|------------------------------------------|--
D|------------------------------------------|--
A|------------------------------------------|--
E|--5--5--5----5----5--2--5--5--2--5--5--2--|--



E|-----------------------------------------------|-----------------|--
B|-----------------------------------------------|-----------------|--
G|-----------------------------------------------|-----------------|--
D|-----------------------------------------------|-----------------|--
A|---------------------7--7--5-----5-------5-----|--------7--7-----|--
E|--5\2--2--2------/7-----------5-------5-----5--|--2--2--------5--|--



E|---------------------------------------------|--------------------------------------|--
B|---------------------------------------------|--------------------------------------|--
G|---------------------------------------------|--------------------------------------|--
D|---------------------------------------------|--------------------------------------|--
A|-------5--5--5----5--5-----5--5-----5--5--5--|--------7--5--4-----------5--4--2--0--|--
E|--2/5-------------------5--------5-----------|--5--5-----------3--3--3--------------|--



E|--------------|---------------------------------------
B|--------------|---------------------------------------
G|--------------|---------------------------------------
D|--------------|---------------------------------------
A|--5--4--2--0--|--2--4--5----------2--4--5----/10--10--
E|--------------|-----------3--3------------------------



E|-----------------------------------|--
B|-----------------------------------|--
G|-----------------------------------|--
D|-----------------------------------|--
A|--2--2----2--2----4--4--5----------|--
E|---------------------------3--3----|--



E|----------------------------------------------------------------------------|--
B|----------------------------------------------------------------------------|--
G|----------------------------------------------------------------------------|--
D|----------------------------------------------------------------------------|--
A|---------------------------------------------5--4--2------------------------|--
E|--5--5--5----2/5--5--5----5--5--5----5\2--2-----------5--5--5----2/5--5--5--|--
http://www.guitartabcreator.com
Guitar Tab Creator is intended to store guitar tab created through the tool. It currently does not support in-line text editing. Any text you place in here will be lost. If you need to comment on your tab, please use the "Tab Notes" section located below.