Cutter

(/) Slide Up  (\) Slide Down  (h) Hammer On  (p) Pull Off  (b) Bend (r) Release (v) Vibrato


E|----------------------|----------------------
B|----------------------|----------------------
G|----------------------|----------------------
D|----------------------|----------------------
A|-----------------4----|-------------------4--
E|--3--3------2---------|----3--3------0h2-----



E|-----------------------|-----------------------------|--
B|-----------------------|-----------------------------|--
G|-----------------------|-----------------------------|--
D|-----------------------|-----------------------------|--
A|----------2--2----4----|-------------2--2--2---------|--
E|--3--3-----------------|--3--3--3---------------5----|--



E|----------------------------|------------------------------------|--
B|----------------------------|------------------------------------|--
G|----------------------------|------------------------------------|--
D|----------------------------|------------------------------------|--
A|--0--4--5--4--2--0--4-------|--0--4--5--4--2--0--4-------5--5----|--
E|-----------------------3----|-----------------------3------------|--



E|-------------------------------------------|-------------------------------|--
B|-------------------------------------------|-------------------------------|--
G|-------------------------------------------|-------------------------------|--
D|-------------------------------------------|-------------------------------|--
A|-------------------------------------------|-------------------------------|--
E|--3--3--3--3--7--7--7--7--9--9--9--9--9----|--3--3--3--3--7--7--7--7--5----|--



E|----------------------------------------|---------------------------------
B|----------------------------------------|---------------------------------
G|----------------------------------------|---------------------------------
D|----------------------------------------|---------------------------------
A|----------------------------------------|--10--10--10--10--9--9--9--9-----
E|--3--3--3--3--7--7--7--7--9--9--9--9----|------------------------------9--



E|-------------------------------|---------------------------------
B|-------------------------------|---------------------------------
G|-------------------------------|---------------------------------
D|-------------------------------|---------------------------------
A|-------------------------------|--10--10--10--10--9--9--9--9-----
E|--3--3--3--3--7--7--7--7--9----|------------------------------5--
http://www.guitartabcreator.com
Guitar Tab Creator is intended to store guitar tab created through the tool. It currently does not support in-line text editing. Any text you place in here will be lost. If you need to comment on your tab, please use the "Tab Notes" section located below.