Bad Ideas

(/) Slide Up  (\) Slide Down  (h) Hammer On  (p) Pull Off  (b) Bend (r) Release (v) Vibrato


E|----------------------|----------------------|--
B|----------------------|----------------------|--
G|----------------------|----------------------|--
D|----------------------|----------------------|--
A|-----------------2----|-----------------2----|--
E|--0--2--4--5--4-------|--0--2--4--5--4-------|--



E|-----------------------------|-----------------------------|--
B|-----------------------------|-----------------------------|--
G|-----------------------------|-----------------------------|--
D|-----------------------------|-----------------------------|--
A|-----------------------11----|-----------------------11----|--
E|--12--0--12--0--11--0--------|--12--0--12--0--11--0--------|--



E|-------------------------|-------------------------|--
B|-------------------------|-------------------------|--
G|-------------------------|-------------------------|--
D|-------------------------|-------------------------|--
A|--7--7--7--6--6--6-------|--7--7--7--6--6--6-------|--
E|--------------------4----|--------------------4----|--



E|------------------------------|------------------------------|------------------------------|--
B|------------------------------|------------------------------|------------------------------|--
G|------------------------------|------------------------------|------------------------------|--
D|------------------------------|------------------------------|-------------------2----------|--
A|-----------2--4----4--4--4----|-----------2-------7--7--7----|-----------2--4-------4--4----|--
E|--2--4--5---------------------|--2--4--5-----0---------------|--2--4--5---------------------|--



E|---------------------------------|-------------------------------
B|---------------------------------|-------------------------------
G|---------------------------------|-------------------------------
D|---------------------------------|-------------------------------
A|-----------------2----2--2--2----|-----------------2----2--2--2--
E|--0--2--4--5--4------------------|--0--2--4--5--4----------------



E|---------------------------------|-------------------
B|---------------------------------|-------------------
G|---------------------------------|-------------------
D|---------------------------------|-------------------
A|-----------------2----2--2--2----|-----------------9\
E|--0--2--4--5--4------------------|--0--2--4--5--4----



E|---------------------------------|---------------------------------|-------------------------------|------------------------|--
B|---------------------------------|---------------------------------|-------------------------------|------------------------|--
G|---------------------------------|---------------------------------|-------------------------------|------------------------|--
D|---------------------------------|---------------------------------|-------------------------------|------------------------|--
A|-----------------2----2--2--2----|-----------------2----2--2--2----|-----------------2----2--2--2--|------------------------|--
E|--0--2--4--5--4------------------|--0--2--4--5--4------------------|--0--2--4--5--4----------------|--0--2--4--5--4--0------|--



E|-----------------------------------------|--
B|-----------------------------------------|--
G|-----------------------------------------|--
D|-----------------------------------------|--
A|----------------------7--7----2--2--0----|--
E|--5--5--4--4----0--0---------------------|--



E|------------------------------------------------------------------|--
B|------------------------------------------------------------------|--
G|------------------------------------------------------------------|--
D|------------------------------------------------------------------|--
A|------------------------4--4--4--4--7--7--7-------7---------------|--
E|--5----5--5----5--5--5-------------------------0-------2--2--2----|--



E|------------------------------------------------------------------------------|--
B|------------------------------------------------------------------------------|--
G|------------------------------------------------------------------------------|--
D|------------------------------------------------------------------------------|--
A|---------------------4--4--4--4--7--7--7----5--5--5---------------------------|--
E|--5----5--5--5--5--------------------------------------2--2--2--2--2--2--2----|--



E|---------------------------------|---------------------------------|---------------------------------|--------------------
B|---------------------------------|---------------------------------|---------------------------------|--------------------
G|---------------------------------|---------------------------------|---------------------------------|--------------------
D|---------------------------------|---------------------------------|---------------------------------|--------------------
A|-----------------2----2--2--2----|-----------------2----2--2--2----|-----------------2----2--2--2----|--------------------
E|--0--2--4--5--4------------------|--0--2--4--5--4------------------|--0--2--4--5--4------------------|--0--2--4--5--4--2--
http://www.guitartabcreator.com
Guitar Tab Creator is intended to store guitar tab created through the tool. It currently does not support in-line text editing. Any text you place in here will be lost. If you need to comment on your tab, please use the "Tab Notes" section located below.