Escape.

Intro
E|-------------------------------------
B|-------------------------------------
G|-------------------------------------
D|-------------------------------------
A|---0--0--0--0--0--0--0--0--0--0--0--0
E|--12-12-12-12-12-12-12-12-12-12-12-12

Verse
E|---------------------------------------------------------------------------------
B|---------------------------------------------------------------------------------
G|---------------------------------------------------------------------------------
D|---------------------------------------------------------------------------------
A|--0-0-0-0-0-0-0-0-0-0-0-0-0-0-0-0-11-11-11-11-11-11-11-11-12-12-12-12-12-12-12-12
E|--9-9-9-9-9-9-9-9-2-2-2-2-2-2-2-2-0--0--0--0--0--0--0--0--10-10-10-10-10-10-10-12


Chorus
E|-----------------------------------------------------------------
B|--------------------------------------------------7-7-7-7-7-7-7-7
G|--6-6-6-6-6-6-6-6-3-3-3-3-3-3-3-3-1-1-1-1-1-1-1-1-7-7-7-7-7-7-7-7
D|--7-7-7-7-7-7-7-7-4-4-4-4-4-4-4-4-2-2-2-2-2-2-2-2-7-7-7-7-7-7-7-7
A|--7-7-7-7-7-7-7-7-4-4-4-4-4-4-4-4-2-2-2-2-2-2-2-2-5-5-5-5-5-5-5-5
E|--5-5-5-5-5-5-5-5-2-2-2-2-2-2-2-2-0-0-0-0-0-0-0-0----------------
Guitar Tab Creator is intended to store guitar tab created through the tool. It currently does not support in-line text editing. Any text you place in here will be lost. If you need to comment on your tab, please use the "Tab Notes" section located below.