i dont like you solo

(/) Slide Up  (\) Slide Down  (h) Hammer On  (p) Pull Off  (b) Bend (r) Release (v) Vibrato

E|-------------------------------------------------------------------------------------
B|--------------------------------------------------------------------------17--20-----
G|--12--10--12--12----14--12--10--12------------14----12--14--16----17--19-------------
D|--------------------------------------14--15-----------------------------------------
A|-------------------------------------------------------------------------------------
E|-------------------------------------------------------------------------------------



E|--19--17--15--15--17--13----15--17--13------------
B|----------------------------------------17--15----
G|--------------------------------------------------
D|--------------------------------------------------
A|--------------------------------------------------
E|--------------------------------------------------



E|---------------------------------------------------------------------------
B|--12--13--12--15--------12--13--12--15--------12--13--12--15---------------
G|------------------14--------------------12--------------------10--9--12----
D|---------------------------------------------------------------------------
A|---------------------------------------------------------------------------
E|---------------------------------------------------------------------------



E|----------------------------------------------------------------------------------
B|----------------------------------------------------------------------------------
G|--12--12--12--12--12--12--12--12--14--12--14--12--14--12--14--12--17--16--14--12--
D|----------------------------------------------------------------------------------
A|----------------------------------------------------------------------------------
E|----------------------------------------------------------------------------------



E|-----------------------
B|-----------------------
G|--12-------------------
D|--------12-------------
A|--------------12----5--
E|-----------------------
http://www.guitartabcreator.com
Guitar Tab Creator is intended to store guitar tab created through the tool. It currently does not support in-line text editing. Any text you place in here will be lost. If you need to comment on your tab, please use the "Tab Notes" section located below.