Bridge Riff to Untitled

(/) Slide Up  (\) Slide Down  (h) Hammer On  (p) Pull Off  (b) Bend (r) Release (v) Vibrato


E|----------------------------------------------------------------------------------------------------
B|----------------------------------------------------------------------------------------------------
G|--6-6-6-6-6-6-6-6-6-7-7-7-5-5-5-6-6-6-6-6-6-6-6-6-7-7-7-5-5-5---------------------------------------
D|--6-6-6-6-6-6-6-6-6-7-7-7-5-5-5-6-6-6-6-6-6-6-6-6-7-7-7-5-5-5-(x2)----------------------------------
A|--4-4-4-4-4-4-4-4-4-5-5-5-3-3-3-4-4-4-4-4-4-4-4-4-5-5-5-3-3-3---------------------------------------
E|----------------------------------------------------------------------------------------------------

E|----------------------------------------------------------------------------------------------------
B|----------------------------------------------------------------------------------------------------
G|---6--6--7--7--5-5--6--6--7--7--5-------------------------------------------------------------------
D|---6--6--7--7--5-5--6--6--7--7--5-------------------------------------------------------------------
A|---4--4--5--5--3-3--4--4--5--5--3-------------------------------------------------------------------
E|----------------------------------------------------------------------------------------------------
http://www.guitartabcreator.com
Guitar Tab Creator is intended to store guitar tab created through the tool. It currently does not support in-line text editing. Any text you place in here will be lost. If you need to comment on your tab, please use the "Tab Notes" section located below.