Don't Leave Me Here


Bridge/Verse 1
^ ^ ^ ^ ^ ^ ^ ^ ^ ^ ^ ^
E|--1-----1----1--1-1-1-1--0-----0----0--0-0-0-0--0-----0----0--0-0-0-0--3-----3----3--3-3-3-3
B|--3-----3----3--3-3-3-3--1-----1----1--1-1-1-1--0-----0----0--0-0-0-0--3-----3----3--3-3-3-3
G|--2-----2----2--2-2-2-2--2-----2----2--2-2-2-2--0-----0----0--0-0-0-0--0-----0----0--0-0-0-0
D|--0-----0----0--0-0-0-0--2-----2----2--2-2-2-2--2-----2----2--2-2-2-2--0-----0----0--0-0-0-0
A|-------------------------0-----0----0--0-0-0-0--2-----2----2--2-2-2-2--2-----2----2--2-2-2-2
E|------------------------------------------------0-----0----0--0-0-0-0--3-----3----3--3-3-3-3


Chorus 1
^ ^ ^ ^ ^ ^ ^ ^ ^ ^ ^ ^
E|--1-----1----1--1-1-1-1--0-----0----0--0-0-0-0--0-----0----0--0-0-0-0--3-----3----3--3-3-3~~
B|--3-----3----3--3-3-3-3--1-----1----1--1-1-1-1--0-----0----0--0-0-0-0--3-----3----3--3-3-3~~
G|--2-----2----2--2-2-2-2--2-----2----2--2-2-2-2--0-----0----0--0-0-0-0--0-----0----0--0-0-0~~
D|--0-----0----0--0-0-0-0--2-----2----2--2-2-2-2--2-----2----2--2-2-2-2--0-----0----0--0-0-0~~
A|-------------------------0-----0----0--0-0-0-0--2-----2----2--2-2-2-2--2-----2----2--2-2-2~~
E|------------------------------------------------0-----0----0--0-0-0-0--3-----3----3--3-3-3~~


Verse 2
^ ^ ^ ^ ^ ^ ^ ^ ^ ^ ^ ^
e|--0-----0----0--0-0-0-0--0-----0----0--0-0-0-0--3-----3----3--3-3-3-3--0-----0----0--0-0-0-0|
B|--1-----1----1--1-1-1-1--1-----1----1--1-1-1-1--3-----3----3--3-3-3-3--0-----0----0--0-0-0-0|
G|--0-----0----0--0-0-0-0--2-----2----2--2-2-2-2--0-----0----0--0-0-0-0--0-----0----0--0-0-0-0|
D|--2-----2----2--2-2-2-2--2-----2----2--2-2-2-2--0-----0----0--0-0-0-0--2-----2----2--2-2-2-2|
A|--3-----3----3--3-3-3-3--0-----0----0--0-0-0-0--2-----2----2--2-2-2-2--2-----2----2--2-2-2-2|
E|------------------------------------------------3-----3----3--3-3-3-3--0-----0----0--0-0-0-0|


Break

e|----------------------------------|--1-1-1-1--|
B|----------------------------------|--3-3-3-3--|
G|----------------------------------|--2-2-2-2--|
D|--(Chorus 1 end)--(Repeat chorus)-|--0-0-0-0--|
A|----------------------------------|-----------|
E|----------------------------------|-----------|

Bridge/Verse x2
Chorus x2
Verse 2 x2
Chorus x2
Verse 2 x2
Chorus x2
Break x1
Chorus x2
Bridge/Verse x4
Chorus (slow)x1

http://www.guitartabcreator.com

Does Rhythm comprehend?

Does Rhythm comprehend?

Guitar Tab Creator is intended to store guitar tab created through the tool. It currently does not support in-line text editing. Any text you place in here will be lost. If you need to comment on your tab, please use the "Tab Notes" section located below.