Rock blues 1

(/) Slide Up  (\) Slide Down  (h) Hammer On  (p) Pull Off  (b) Bend (r) Release (v) Vibrato

E|-----------5----------------------------
B|--------5-----8--7--5--------5----------
G|--5--6-----------------5--6-----4/6-----
D|-------------------------------------7--
A|----------------------------------------
E|----------------------------------------



E|----------------------------------------------------------------------------------
B|----------------------------------------------------------------------------------
G|-----5-----7--5--7--5--7b8--7--5-----------------------------------------7--5-----
D|--7-----7-------------------------7--5-----5--------5--------------------------7--
A|----------------------------------------7-----7--5-----7--5--7--5-----------------
E|-------------------------------------------------------------------8--5-----------
http://www.guitartabcreator.com
Guitar Tab Creator is intended to store guitar tab created through the tool. It currently does not support in-line text editing. Any text you place in here will be lost. If you need to comment on your tab, please use the "Tab Notes" section located below.