Hidden intro

(/) Slide Up  (\) Slide Down  (h) Hammer On  (p) Pull Off  (b) Bend (r) Release (v) Vibrato
E|-----------------4--------4-----------------------------------------------4--------4------------
B|--------------5--------------5-----------------5-----5-----------------5--------------5-----12--
G|--------9--------------9-----------------9--7-----6-----4--------9--------------9---------------
D|-----7-----0--------------------0-----7-----------------------7-----0--------------------0------
A|--7-----------------0--------------7-----------------------7-----------------0------------------
E|------------------------------------------------------------------------------------------------



E|------------------------4--------4--------------4-----
B|--10-----------------------5--------5--------5--------
G|------8--7--------9-----------------------9-----------
D|---------------7-----0--------0--------0--------------
A|------------7--------------------------------------0--
E|------------------------------------------------------



E|-------------------------------------------------------------
B|--5--5-----------9------------5--5--5--5--9--10-----7--------
G|--0--0--6--5-----8--5--3--8---0--0--0--0---------------5-----
D|--7--7--7--7-----7--7--5--10--7--7--7--7--7--8---8-----------
A|--7--7--7--7--0--7--7--5--10--7--7--7--7--7------8--------0--
E|--------------7----------------------------------------------



E|----------6p4----------6p4-------------10p8-------------10p8-----
B|-----5p3----------5p3-------------9p7--------------9p7-----------
G|-----------------------------------------------------------------
D|--0------------0------------0----------------0----------------0--
A|-------------------------------0----------------0----------------
E|-----------------------------------------------------------------



E|-----------------------------------------------
B|-----------------------------------------------
G|------------------10p8-------------------------
D|--8p6-----8p6--------------8p6-----5-----------
A|-------6-------6--------6-------0--------------
E|--------------------------------------0--3--2--
http://www.guitartabcreator.com
Guitar Tab Creator is intended to store guitar tab created through the tool. It currently does not support in-line text editing. Any text you place in here will be lost. If you need to comment on your tab, please use the "Tab Notes" section located below.