Cliffs Of Dover

(/) Slide Up  (\) Slide Down  (h) Hammer On  (p) Pull Off  (b) Bend (r) Release (v) Vibrato

E|-----15b17--15--12--14------12-------------12------------------------12--15--14p12--
B|------------------------15------12--15b17------15p12---------12--15-----------------
G|------------------------------------------------------14b16-------------------------
D|------------------------------------------------------------------------------------
A|------------------------------------------------------------------------------------
E|--0---------------------------------------------------------------------------------



E|------14p12--------------12----------------------------------------------------
B|--15---------15--12--15------15p12------15p12---------12--15-------------------
G|------------------------------------14---------14b16----------14b16b14p12------
D|---------------------------------------------------------------------------14--
A|-------------------------------------------------------------------------------
E|-------------------------------------------------------------------------------
http://www.guitartabcreator.com
Guitar Tab Creator is intended to store guitar tab created through the tool. It currently does not support in-line text editing. Any text you place in here will be lost. If you need to comment on your tab, please use the "Tab Notes" section located below.