John Frusciante - The Mirror - The Will To Death Arpeggio

(/) Slide Up  (\) Slide Down  (h) Hammer On  (p) Pull Off  (b) Bend (r) Release (v) Vibrato


E|--------------------------------------------------------------
B|--10---------10--10---------10--10---------10--10---------10--
G|----------9--------------9--------------9--------------9------
D|------10-------------10-------------10-------------10---------
A|--0-----------------------------------------------------------
E|--------------------------------------------------------------



E|------------------------------------------------------------------
B|--10----------10--10----------10--10----------10--10----------10--
G|----------10--------------10--------------10--------------10------
D|------10--------------10--------------10--------------10----------
A|--8---------------------------------------------------------------
E|------------------------------------------------------------------



E|------------------------------------------------------------------
B|--12----------12--12----------12--12----------12--12----------12--
G|----------10--------------10--------------10--------------10------
D|------12--------------12--------------12--------------12----------
A|------------------------------------------------------------------
E|--10--------------------------------------------------------------



E|-----------------------------------------------------
B|--8---------8--8--------8--8---------8--8---------8--
G|---------7-----------7------------9------------9-----
D|------9-----------9-----------10-----------10--------
A|--10-------------------------------------------------
E|---------------------------8-------------------------



E|--8---------8--8---------8--8---------8--8---------8-----
B|--------10-----------10-----------10-----------10--------
G|-----9------------9------------9------------9------------
D|---------------------------------------------------------
A|--0------------------------------------------------------
E|---------------------------------------------------------



E|--8----------8--8----------8--8----------8--8----------8--
B|---------10------------10------------10------------10-----
G|-----10------------10------------10------------10---------
D|----------------------------------------------------------
A|--8-------------------------------------------------------
E|----------------------------------------------------------



E|--10----------10--10----------10--10----------10--10----------10--
B|----------10--------------10--------------12--------------12------
G|------10--------------10--------------12--------------12----------
D|--0---------------------------------------------------------------
A|----------------------------------10------------------------------
E|------------------------------------------------------------------



E|--12----------12--12----------12--12----------12--12----------12--
B|----------13--------------13--------------13--------------13------
G|------12--------------12--------------12--------------12----------
D|--10--------------------------------------------------------------
A|------------------------------------------------------------------
E|------------------------------------------------------------------



E|--12--
B|--10--
G|--9---
D|--10--
A|--0---
E|------
http://www.guitartabcreator.com
Guitar Tab Creator is intended to store guitar tab created through the tool. It currently does not support in-line text editing. Any text you place in here will be lost. If you need to comment on your tab, please use the "Tab Notes" section located below.