John Frusciante Chord/Melody Two-Note

(/) Slide Up  (\) Slide Down  (h) Hammer On  (p) Pull Off  (b) Bend (r) Release (v) Vibrato
E|--------------------------------------------------------
B|-----10----------------------------12/14--14v------14v--
G|------------9v------11h13--11---------------------------
D|--------------------------------------------------------
A|--9-----------------------------------------------------
E|---------9------10-------------10--------------10-------



E|---------------12-----12------9---------------------------
B|-----10-------------------------------10h12p10------9h10--
G|----------------------------------------------------------
D|----------------------------------------------------------
A|--9------9------------------------------------------------
E|------------9------9------10-----10v------------10--------



E|---------------------------------------------------
B|-----10--------------------------------------------
G|-----------------------------------------11h13p11--
D|---------------------------------------------------
A|--9------9-----11-----11/12------12----------------
E|------------9------9---------10------10------------



E|---------9-------------------------------------------
B|-----10-----10--------9----------10------------------
G|-------------------9---------11----------11----------
D|-------------------------------------------------11--
A|--9--------------------------------------------------
E|----------------9--------10----------10------10------

TranscripciĆ³n no exacta por Lautaro M.
http://www.guitartabcreator.com
Guitar Tab Creator is intended to store guitar tab created through the tool. It currently does not support in-line text editing. Any text you place in here will be lost. If you need to comment on your tab, please use the "Tab Notes" section located below.