Nothing To Lose But Our Minds (Intro)

(/) Slide Up  (\) Slide Down  (h) Hammer On  (p) Pull Off  (b) Bend (r) Release (v) Vibrato

E|-----------------------9b10------------------------------------
B|-------------------10--------10--------------------------------
G|----------6--7--9----------------9/11--9--11\7--7--6--7--9--9--
D|--7v--7v-------------------------------------------------------
A|---------------------------------------------------------------
E|---------------------------------------------------------------



E|---------------------------9--10--12--12/17------------------------------------
B|-------------------10--10--------------------17b19--17r19--15--14--15--17------
G|----------6--7--9--------------------------------------------------------------
D|--7v--7v-------------------------------------------------------------------14--
A|-------------------------------------------------------------------------------
E|-------------------------------------------------------------------------------
http://www.guitartabcreator.com
Guitar Tab Creator is intended to store guitar tab created through the tool. It currently does not support in-line text editing. Any text you place in here will be lost. If you need to comment on your tab, please use the "Tab Notes" section located below.