A moment of silence - horns

(/) Slide Up  (\) Slide Down  (h) Hammer On  (p) Pull Off  (b) Bend (r) Release (v) Vibrato

E|--15--15--15--12--15--14v------12--14--12----------
B|---------------------------15--------------12v-----
G|---------------------------------------------------
D|---------------------------------------------------
A|---------------------------------------------------
E|---------------------------------------------------



E|--15--15--15--12--15--14v------12--14--12v--
B|---------------------------15---------------
G|--------------------------------------------
D|--------------------------------------------
A|--------------------------------------------
E|--------------------------------------------



E|--12--14--15--14--12------12--
B|----------------------15------
G|------------------------------
D|------------------------------
A|------------------------------
E|------------------------------



E|--
B|--
G|--
D|--
A|--
E|--



E|--------
B|--------
G|--------
D|--------
A|--------
E|--------
http://www.guitartabcreator.com
Guitar Tab Creator is intended to store guitar tab created through the tool. It currently does not support in-line text editing. Any text you place in here will be lost. If you need to comment on your tab, please use the "Tab Notes" section located below.