My Song By Last Wish

(/) Slide Up  (\) Slide Down  (h) Hammer On  (p) Pull Off  (b) Bend (r) Release (v) Vibrato

(W|WW) Whole (H|HH) Half (Q|QQ) Quarter (E|EE) 8th (S|SS) 16th (T|TT) 32nd (X|XX) 64th

Intro "Guitar 1"
t: H E E Q Q Q Q H E E Q Q Q Q H E E Q Q Q Q W
E|--0---------------0---------------3---------------0-----------------|
B|--1--0h1-0--------1--0h1-0--------0--0h1-0--------1-----------------|
G|--2--------2------0--------0------0--------0------2-----------------|x4
D|--2---------------2---------------0---------------2-----------------|
A|--0-----------0-2-3-----------3-2-2-----------0-2-0-----------------|
E|----------------------------------3---------------------------------|

Intro "Guitar 2" After Guitar 1 plays Intro x2
t:
E|--0---------------0---------------3---------------0-----------------|
B|--1---------------1---------------0---------------1-----------------|
G|--2---------------0---------------0---------------2-----------------|x2
D|--2---------------2---------------0---------------2-----------------|
A|--0---------------3---------------2---------------o-----------------|
E|----------------------------------3---------------------------------|


Bridge both "Guitar's 1+2" (Find out struming)
t:
E|--0---3-----0---3-----3---3-----0---0-------------------------------|
B|--1---1-----1---1-----0---1-----1---1-------------------------------|
G|--2---2-----0---0-----0---0-----2---2-------------------------------|x2
D|--2---2-----2---2-----0---0-----2---2-------------------------------|
A|--0---0-----3---3-----2---2-----0---0-------------------------------|
E|----------------------3---3-----------------------------------------|


Corce "Guitar 2"
t: (------------------------------E---------------------------------)
E|--------------------------------------------------------------------|
B|--------------------------------------------------------------------|
G|---***-***-***-***-***-***-***-***-----------------***-***-***-***--|x4
D|--22222222222222225555555555555555-***-***-***-***2222222222222222--|
A|--0000000000000000333333333333333355555555555555550000000000000000--|
E|----------------------------------3333333333333333------------------|


"Guitar 1" plays "Guitar 2's" Intro x2. Then joins "Guitar 2"
t: (------------------------------E---------------------------------)
E|--------------------------------------------------------------------|
B|---***-***-***-***-***-***-***-***-----------------***-***-***-***--|
G|--44444444444444447777777777777777-***-***-***-***4444444444444444--|x4
D|--2222222222222222555555555555555577777777777777772222222222222222--|
A|----------------------------------5555555555555555------------------|
E|--------------------------------------------------------------------|

"Guitar 2"
t: W W W W W W W W
E|--0-------0-------0-------0--------3------3------0-------0----------|
B|--1-------1-------1-------1--------0------0------1-------1----------|
G|--2-------2-------0-------0--------0------0------2-------2----------|x2
D|--2-------2-------2-------2--------0------0------2-------2----------|
A|--0-------0-------3-------3--------2------2------0-------0----------|
E|-----------------------------------3------3-------------------------|




I need something else to go with this... Can any one help finish it?

macrob961@live.ca

Guitar Tab Creator is intended to store guitar tab created through the tool. It currently does not support in-line text editing. Any text you place in here will be lost. If you need to comment on your tab, please use the "Tab Notes" section located below.