Band's song

(/) Slide Up  (\) Slide Down  (h) Hammer On  (p) Pull Off  (b) Bend (r) Release (v) Vibrato

(W|WW) Whole (H|HH) Half (Q|QQ) Quarter (E|EE) 8th (S|SS) 16th (T|TT) 32nd (X|XX) 64th


t: EEEE~~Q Q EEEE~~Q Q EEEE~~E~EE EEEE~~E E E
E|----------------------------------------------------|\
B|----------------------------------------------------| \
G|----------------------------------------------------|x3\
D|---2-2-/5-0----2-2-/5-7----2-2-/5p4-----2-2-/5-5-7--| \
A|--0-0---------0-0---------0-0------5---0-0----------| \--INTRO
E|----------------------------------------------------| \
\
Hold the last note for an 8th, then slide to 1st fret. \
t: EEEE~~Q Q EEEE~~Q Q EEEE~~E~EE EEEE~~E E E E E E E E)\
E|---------------------------------------------------------------|
B|---------------------------------------------------------------|
G|---------------------------------------------------------------|
D|---2-2-/5-0----2-2-/5-7----2-2-/5p4-----2-2-/5-5-7-5-----------|
A|--0-0---------0-0---------0-0------5---0-0-----------7-5-------|
E|---------------------------------------------------------8-5/--|


t: EEEEEEEE EEEEEEEE EEEEEEEE EEEEEEEE
E|---------------------------------------|
B|---*******--*******--------------------|
G|--22222222-55555555--*******--*******--|
D|--22222222-55555555-55555555-33333333--|\
A|--00000000-33333333-55555555-33333333--| \
E|--------------------33333333-11111111--| \
\
)--Corse
t: EEEEEEEE EEEEEEEE EEEEEEEE EEEEEEEE /
E|---------------------------------------| /
B|---*******--*******-----------***(-<-)-| /
G|--22222222-55555555--*******-33333333--|/
D|--22222222-55555555-55555555-33333333--|x2
A|--00000000-33333333-55555555-11111111--|
E|--------------------33333333-----------|

Play this at the end of the "Corse".
Wile second guitar repeats "Intro".
t: x4,W
E|------|
B|------|
G|---2--|
D|---2--|x2
A|---0--|
E|------|

----Repeat all this twice then move on to the next part----




Guitar Tab Creator is intended to store guitar tab created through the tool. It currently does not support in-line text editing. Any text you place in here will be lost. If you need to comment on your tab, please use the "Tab Notes" section located below.