Natural Minor (Aeolian Mode)

(/) Slide Up  (\) Slide Down  (h) Hammer On  (p) Pull Off  (b) Bend (r) Release (v) Vibrato

Stave 1:

E|--------------------------
B|--------------------------
G|--------------------1--3--
D|-----------1--3--4--------
A|--1--3--4-----------------
E|--------------------------

Stave 2:

E|-----------------4--6--4--6--4-----------------
B|-----------6--7-----------------7--6-----------
G|--5--6--8-----------------------------8--6--5--
D|-----------------------------------------------
A|-----------------------------------------------
E|-----------------------------------------------

Stave 3:

E|-----------------------------
B|-----------------------------
G|--3--1-----------------------
D|--------4--3--1--------------
A|-----------------4--3--1-----
E|--------------------------4--

http://www.guitartabcreator.com
Guitar Tab Creator is intended to store guitar tab created through the tool. It currently does not support in-line text editing. Any text you place in here will be lost. If you need to comment on your tab, please use the "Tab Notes" section located below.