Major Scale Guitar II Spring

(/) Slide Up  (\) Slide Down  (h) Hammer On  (p) Pull Off  (b) Bend (r) Release (v) Vibrato


E|-----------------------
B|-----------------------
G|-----------------1--3--
D|--------1--2--4--------
A|--2--4-----------------
E|-----------------------



E|-----------------4--6--7--6--4-----------------
B|--------4--5--7-----------------7--5--4--------
G|--4--6-----------------------------------6--4--
D|-----------------------------------------------
A|-----------------------------------------------
E|-----------------------------------------------



E|--------------------------------
B|--------------------------------
G|--3--1--------------------------
D|--------4--2--1-----------------
A|-----------------4--2--1-----1--
E|--------------------------4-----



E|--------------------------------------4--6--7--6--4-----------------------------------------------
B|-----------------------------4--5--7-----------------7--5--4--------------------------------------
G|--------------------3--4--6-----------------------------------6--4--3-----------------------------
D|-----------2--4--6-----------------------------------------------------6--4--2--------------------
A|--2--4--6-----------------------------------------------------------------------6--4--2-----------
E|-----------------------------------------------------------------------------------------6--4--6--
http://www.guitartabcreator.com
Guitar Tab Creator is intended to store guitar tab created through the tool. It currently does not support in-line text editing. Any text you place in here will be lost. If you need to comment on your tab, please use the "Tab Notes" section located below.