Blues Guitar II Spring

(/) Slide Up  (\) Slide Down  (h) Hammer On  (p) Pull Off  (b) Bend (r) Release (v) Vibrato


E|--------------------------
B|--------------------------
G|-----------------------1--
D|-----------------1--3-----
A|--------1--2--3-----------
E|--1--4--------------------



E|-----------------4--6--4--
B|-----------4--6-----------
G|--3--4--5-----------------
D|--------------------------
A|--------------------------
E|--------------------------



E|--6b6--4-----------------
B|----------6--4-----------
G|----------------5--4--3--
D|-------------------------
A|-------------------------
E|-------------------------



E|--------------------------
B|--------------------------
G|--1-----------------------
D|-----3--1-----------------
A|-----------3--2--1--------
E|--------------------4--1--



E|-----------------------
B|-----------------------
G|--------------------1--
D|--------------1--3-----
A|--------1--3-----------
E|--1--4-----------------



E|--------------4--6--4--6b6--
B|--------4--6----------------
G|--3--5----------------------
D|----------------------------
A|----------------------------
E|----------------------------



E|--4--------------
B|-----6--4--------
G|-----------5--3--
D|-----------------
A|-----------------
E|-----------------



E|-----------------------------------
B|-----------------------------------
G|--1--------------------------------
D|-----3--1--------------------------
A|-----------3--1-----------1--------
E|-----------------4--1--4-----4--1--
http://www.guitartabcreator.com
Guitar Tab Creator is intended to store guitar tab created through the tool. It currently does not support in-line text editing. Any text you place in here will be lost. If you need to comment on your tab, please use the "Tab Notes" section located below.