Song #5 Intro/Chorus

(/) Slide Up  (\) Slide Down  (h) Hammer On  (p) Pull Off  (b) Bend (r) Release (v) Vibrato

E|---------------------------------------------------------------------------------
B|---------------------------------------------------------------------------------
G|---------------------------------------------------------------------------------
D|----------7------------------5---------------------3----------------10--9--------
A|-----7-------7----------5-------5--3----------3-------3--2-----2/7---------8--7--
E|--5-------------5----3----------------5----1----------------3--0-----------------



E|---------------------------------------------------------------------------------
B|---------------------------------------------------------------------------------
G|---------------------------------------------------------------------------------
D|----------7------------------5----------------4--5--4----------5/12--10----------
A|-----7-------7----------5-------5--3-------5-----------5----7------------13--11--
E|--5-------------5----3----------------5------------------------------------------
http://www.guitartabcreator.com
Guitar Tab Creator is intended to store guitar tab created through the tool. It currently does not support in-line text editing. Any text you place in here will be lost. If you need to comment on your tab, please use the "Tab Notes" section located below.