#5 Bridge/Interlude

(/) Slide Up  (\) Slide Down  (h) Hammer On  (p) Pull Off  (b) Bend (r) Release (v) Vibrato


E|--------------------------------------------------------------------------------------
B|--------------------------------------------------------------------------------------
G|--------------------------------------------------------------------------------------
D|-----------------------------------------------------------------6--7--6--------------
A|--7--------8-----------------------------------7--------8--7--8-----------8--7--8--5--
E|-----5--4-------0--4--5--0--1--4/8--8--5--4-------5--4--------------------------------



E|------------------------------------------------------------------------------------------
B|------------------------------------------------------------------------------------------
G|------------------------------------------------------------------------------------------
D|------------------------------------------------------------------------------------------
A|--7--------8-----------------------------------7--------8---------------------------------
E|-----5--4-------0--4--5--0--1--4/8--8--5--4-------5--4-----5--8--4----5--4--1----4--1--0--
http://www.guitartabcreator.com
Guitar Tab Creator is intended to store guitar tab created through the tool. It currently does not support in-line text editing. Any text you place in here will be lost. If you need to comment on your tab, please use the "Tab Notes" section located below.