A Walking Story

         INTRO
E|----1---1---1---1---1----1----1---------------------------1---1---1---0---0---0----------------
B|----------------------------------1---1---1---1---1---1---------------------------1---1---1---0
G|---2---2---2---2---2----2----2---2---2---2---2---2---2---2---2---2---2---2---2---2---2---2---2-
D|--2---2---2---2---2----2----2---2---2---2---2---2---2---2---2---2---2---2---2---2---2---2---2--
A|----------------------0----0-------------------------------------------------------------------
E|-----------------------------------------------------------------------------------------------

E|-------------
B|----0---0----
G|---2---2-----
D|--2---2------ (x2)
A|-------------
E|-------------

Verse
E|--------1-1-1-1-----------1--------1-1-1-1-----------1-------0-0-0-0------------0-
B|-------0-0-0---0---------0--------0-0-0---0---------0-------1-1-1---1----------1--
G|------2-2-2-----2-------2--------2-2-2-----2-------2-------2-2-2------2-------2---
D|-----2-2-2-------2-----2--------2-2-2-------2-----2-------2-2-2--------2-----2----
A|----0-0-0---------0---0--------0-0-0---------0---0-------0-0-0----------0---0-----
E|---0-0-0-----------0-0--------0-0-0-----------0-0-------0-0-0------------0-0------

E|-------0-0-0-0-----------0-
B|------1-1-1---1---------1--
G|-----2-2-2-----2-------2---
D|----2-2-2-------2-----2---- (x12)
A|---0-0-0---------0---0-----
E|--0-0-0-----------0-0------

Chorus
E|--1-1-1-1------1--1-1-1-1-------1--0-0-0--0-------0
B|--2-2-2--2-----2--3-3-3--3------3--0-0-0---0------0
G|--3-3-3---3----3--2-2-2---2-----2--0-0-0----0-----0
D|--0-0-0----0---0--0-0-0----0----0--2-2-2-----2----2
A|--0-0-0-----0--0--0-0-0-----0---0--2-2-2------2---2
E|--0-0-0------0-0--0-0-0------0--0--0-0-0-------0--0

Intro
Verse
Chorus
Verse
Chorus

Guitar Tab Creator is intended to store guitar tab created through the tool. It currently does not support in-line text editing. Any text you place in here will be lost. If you need to comment on your tab, please use the "Tab Notes" section located below.