Honey

Honey
Written By: Austen Yorko

(/) Slide Up (\) Slide Down (h) Hammer On (p) Pull Off (b) Bend

Riff A:
E|---------------------------
B|---------------------------
G|------------------------3/5
D|----------5-------------5/7
A|----5h6h7---7-5-3-------5/7
E|--5---------------5-3p0-3/5

Riff B:
E|----------------------------
B|----------------------------
G|----------------------------
D|----------5-7-7b-7-5--------
A|----5h6h7------------7-5-5h7
E|--5-------------------------

Riff C:
E|--------------------------------
B|--------------------------------
G|-----------------------------3/5
D|----------5-------------h2-2-5/7
A|----5h6h7---7-5-3-------h2-2-5/7
E|--5---------------5-3p0-h0-0-3/5

Riff D:
E|-----------------------
B|-----------------------
G|----------2----2-------
D|--2---2---2----2--0h2p0
A|--2---2---0----0-------
E|--0---0-3----3---------

Riff E:
E|------------------/77
B|------------------/77
G|----------2----2--/77
D|--2---2---2----2-----
A|--2---2---0----0-----
E|--0---0-3----3-------

Riff F:
E|---------------------
B|---------------------
G|----------2----2-----
D|--2---2---2----2--x-x
A|--2---2---0----0--x-x
E|--0---0-3----3----x-x

Riff G:
E|------------------------
B|--3-----/5--------------
G|--5-----/7-----3--------
D|--3-----/7-----5--------
A|--3(x8)-/5(x2)-5--------
E|---------------3(x4)-9/0

Riff H:
E|---------------------------------
B|--3-----5------------------------
G|--5-----7-----5-------1-xx-3-xx-5
D|--5-----7-----7-------3-xx-5-xx-7
A|--3(x8)-5(x8)-7-------3-xx-5-xx-7
E|--------------5(x4/8)-1-xx-3-xx-5

Lyrics

Verse 1:
See you standing on the wayside
Honey, come over here
I ask you twice, you tell me none
What do they call you, my dear
You pass a glance, and I'll give it back
If you just come on near

Chorus:
I'll hold you through the deepest darks
And in the highest days

Verse 2:
There must be something I can do
To pull you from my dreams
Running up hill for your love
Forcing me onto my knees
There isn't anything in this world, honey
Other than you and me

Chorus(x2):
I'll hold you through the deepest darks
And in the highest days
Guitar Tab Creator is intended to store guitar tab created through the tool. It currently does not support in-line text editing. Any text you place in here will be lost. If you need to comment on your tab, please use the "Tab Notes" section located below.