Letter of a Private

(/) Slide Up  (\) Slide Down  (h) Hammer On  (p) Pull Off  (b) Bend (r) Release (v) Vibrato
C E Am G/Am Dm G C
E|---------0---------0-1-0------------------5-5-----1--------------0---------
B|-----1-3-----------------3---3---1----1-------3--3---3---3---1-------------
G|---------------0---------------2----------------2------0------0-0----------
D|---------2----2---------------------------0---0---------0------2-----------
A|-----3-------3---------------0----------2--------------------3-------------
E|-------------------0---0--------------3--------------3---------------------


c E Am G/Am Dm G
E|----------------------0-------------0-----------------3------
B|---------1-------------------------1-----------------3-------
G|--------0-----1------2----2-------2--------------0--0--------
D|--0-2-2-----2---2---2----2-------0--------0---0----0---------
A|-3-----------------0---------2-3------3-3---3----------------
E|------------0-----------3------------------------3-----------



E|----------0--------
B|--------1----------
G|----0--------------
D|---0-2--------0-2-0------
A|--3-----3-----------3-----
E|------------0------------
http://www.guitartabcreator.com
Guitar Tab Creator is intended to store guitar tab created through the tool. It currently does not support in-line text editing. Any text you place in here will be lost. If you need to comment on your tab, please use the "Tab Notes" section located below.