Test

(/) Slide Up  (\) Slide Down  (h) Hammer On  (p) Pull Off  (b) Bend (r) Release (v) Vibrato

E|-----------------------------------
B|-----------------------------------
G|--5---------14--18--------------8--
D|-----3--11----------16--12---------
A|----------------------------10-----
E|-----------------------------------



E|----------------------------------------------------------------
B|-----------12------------------------5-------------------17-----
G|-------------------------------------------12-----16------------
D|-----9------------14-----------4--------------------------------
A|-------------------------9--------------------------------------
E|----------------------------------------------------------------



E|----------------------------------------------
B|----------------------------------------------
G|--4-----8------11--------------------5--3-----
D|-----6-----12------13--16------9--7--------9--
A|---------------------------13-----------------
E|----------------------------------------------



E|--------------------------------------
B|---------------------------2-----3p5--
G|--6------14---------------------------
D|-----10----------10-----4-----0-------
A|-------------17------7----------------
E|--------------------------------------
http://www.guitartabcreator.com
Guitar Tab Creator is intended to store guitar tab created through the tool. It currently does not support in-line text editing. Any text you place in here will be lost. If you need to comment on your tab, please use the "Tab Notes" section located below.