Cosmological Teapot

(/) Slide Up  (\) Slide Down  (h) Hammer On  (p) Pull Off  (b) Bend (r) Release (v) Vibrato
E|-----------0-----------0-----------0-----------0-----------3-----------3-----------3--
B|--------1-----------1-----------1-----------1-----------1-----------1-----------1-----
G|-----0-----------0-----------0-----------0-----------2-----------2-----------2--------
D|--3-----------3-----------3-----------3-----------3-----------3-----------3-----------
A|--------------------------------------------------------------------------------------
E|--------------------------------------------------------------------------------------



E|-----------3-----------0-----------0-----------0-----------0-----------3-----------3--
B|--------1-----------1-----------1-----------1-----------1-----------1-----------1-----
G|-----2-----------2-----------2-----------2-----------2-----------2-----------2--------
D|--3-----------3-----------3-----------3-----------3-----------3-----------3-----------
A|--------------------------------------------------------------------------------------
E|--------------------------------------------------------------------------------------



E|-----------3-----------3-----------0-----------0-----------0-----------0-----------0--
B|--------1-----------1-----------1-----------1-----------1-----------1-----------1-----
G|-----2-----------2-----------2-----------2-----------2-----------2-----------0--------
D|--3-----------3-----------3-----------3-----------3-----------3-----------------------
A|--------------------------------------------------------------------------3-----------
E|--------------------------------------------------------------------------------------



E|-----------0-----------0-----------0-----------0-----------0-----------0-----------0--
B|--------1-----------1-----------1-----------1-----------1-----------1-----------1-----
G|-----0-----------0-----------0-----------0-----------0-----------0-----------0--------
D|--2-----------------------2-----------------------------------------------------------
A|--------------3-----------------------------------2-----------------------2-----------
E|--------------------------------------3-----------------------3-----------------------



E|-----------0-----------0-----------0-----------0-----------0-----------0-----------0--
B|--------1-----------1-----------1-----------1-----------1-----------1-----------1-----
G|-----0-----------0-----------0-----------0-----------0-----------0-----------0--------
D|--------------2-----------------------2-----------------------2-----------------------
A|--3-----------------------3-----------------------3-----------------------3-----------
E|--------------------------------------------------------------------------------------



E|-----------0--
B|--------1-----
G|-----0--------
D|--2-----------
A|--------------
E|--------------



E|--3--0--3--0--0--0--0--0--
B|--1--1--1--1--1--1--3--1--
G|--2--2--2--2--0--0--0--0--
D|--3--3--3--3--0--0--0--2--
A|--0--0--0--0--3--0--2--0--
E|--0--0--0--0--0--3--0--0--



E|-----------3-----------0-----------3-----------0--------3--
B|--------1-----------1-----------1-----------1-----1-----1--
G|-----2-----------2-----------2-----------2-----------2--2--
D|--3-----------3-----------3-----------3-----------------3--
A|--------------------------------------------------------0--
E|--------------------------------------------------------0--
http://www.guitartabcreator.com
Guitar Tab Creator is intended to store guitar tab created through the tool. It currently does not support in-line text editing. Any text you place in here will be lost. If you need to comment on your tab, please use the "Tab Notes" section located below.