Change

(/) Slide Up  (\) Slide Down  (h) Hammer On  (p) Pull Off  (b) Bend (r) Release (v) Vibrato


E|--0----0----0----0--
B|--1----1----0----1--
G|--0----0----1----0--
D|--2----2----0----2--
A|--3----0----2----0--
E|--------------------



E|------------------------------------------------------------------------
B|--7----7-9---6----7-9---7p6h7p6--------------------7-9------------------
G|--6----8/10--6----8/10--6--------8p6--8b10b8v------8/10-----------------
D|---------------------------------------------------------11----7/8/11v--
A|------------------------------------------------------------------------
E|------------------------------------------------------------------------
http://www.guitartabcreator.com
Guitar Tab Creator is intended to store guitar tab created through the tool. It currently does not support in-line text editing. Any text you place in here will be lost. If you need to comment on your tab, please use the "Tab Notes" section located below.