lalapoop

(/) Slide Up  (\) Slide Down  (h) Hammer On  (p) Pull Off  (b) Bend (r) Release (v) Vibrato
E|-----------------------------------------------------------------------------------
B|--------8h10p8-----8--------3h5p3--------------5h7p5--8p7--------------------------
G|----------------9------------------7--5---------------9-7--------------------------
D|-----9----------9--------5---------7--5-----7--------------------7-----------7-----
A|--7-------------------3------------------5--------------------5-----------5--------
E|-----------------------------------------------------------5--------5--4--------4--



E|--------------------------------------------------------------------------------------------------
B|--------5-----------5-----------7-----------7-----------------------------------------------------
G|--------------------------------------------------------------------------------------------------
D|-----5-----------5-----------7-----------7--------------7-----------7-----------5-----------5-----
A|--3--------3--3--------3--5--------5--5--------5-----5-----------5-----------2-----------2--------
E|--------------------------------------------------5--------5--4--------4--2--------2--2--------2--
http://www.guitartabcreator.com
Guitar Tab Creator is intended to store guitar tab created through the tool. It currently does not support in-line text editing. Any text you place in here will be lost. If you need to comment on your tab, please use the "Tab Notes" section located below.