Hotel California easy version 0.0

(/) Slide Up  (\) Slide Down  (h) Hammer On  (p) Pull Off  (b) Bend (r) Release (v) Vibrato

E|----------------0------------3--------------------------------------
B|-0--------------2------------2------------0----------3--------------
G|---2--------------2------------0------------0-----0----3------------
D|-----2---2----------1---0--------0------------2---2------2---2------
A|-------1-----1--------0------------0---0--------3-3--------1-----1--
E|-----------0--------------0----------3------------2------------0----



E|----------------------------------------------0-0-0-0-0-0--0---0-
B|-0--------------------------------------------2-2-2-2-2-2--2---2-
G|-0-0------------------------------------------2-2-2-2-2-2--2---2-
D|-----2---2----------2-----2-----2-----2-----2-1-1-1-1-1-1--1---1-
A|-------3-----3----3-----3-----3-----3-----3---0-0-0-0-0-0--0---0-
E|-----------1----1-----1-----1-----1-----1-----0-0-0-0-0-0--0---0-
http://www.guitartabcreator.com
Guitar Tab Creator is intended to store guitar tab created through the tool. It currently does not support in-line text editing. Any text you place in here will be lost. If you need to comment on your tab, please use the "Tab Notes" section located below.