Metal Song

(/) Slide Up  (\) Slide Down  (h) Hammer On  (p) Pull Off  (b) Bend (r) Release (v) Vibrato


E|---------------------|-
B|---------------------|-
G|---------------------|-
D|-6-5-0-1-1-3-3-5-5---|-
A|-6-5-0-1-1-3-3-5-5-0-|-
E|-6-5-0-1-1-3-3-5-5-0-|-



E|-----------------|-
B|-----------------|-
G|-----------------|-
D|-7-6-5-0-3-5-4-0-|-
A|-7-6-5-0-3-5-4-0-|-
E|-7-6-5-0-3-5-4-0-|-



E|---------|-
B|---------|-
G|---------|-
D|-5-7-5-0-|-
A|-5-7-5-0-|-
E|-5-7-5-0-|-



E|-------|-
B|-------|-
G|-------|-
D|-3-2-1-|-
A|-3-2-1-|-
E|-3-2-1-|-



E|-----------------------------------|-
B|-----------------------------------|-
G|-----------------------------------|-
D|-0-2-3-2-0-5-3-2-0-2-3-2-0-5-3-2-8-|-
A|-0-2-3-2-0-5-3-2-0-2-3-2-0-5-3-2-8-|-
E|-0-2-3-2-0-5-3-2-0-2-3-2-0-5-3-2-8-|-
http://www.guitartabcreator.com
Guitar Tab Creator is intended to store guitar tab created through the tool. It currently does not support in-line text editing. Any text you place in here will be lost. If you need to comment on your tab, please use the "Tab Notes" section located below.