Black metal song

(/) Slide Up  (\) Slide Down  (h) Hammer On  (p) Pull Off  (b) Bend (r) Release (v) Vibrato


E|-----------------------------------------------------
B|-----------------------------------------------------
G|-----------------------------------------------------
D|-----6--5--------5--4--------6--5--------5--4--------
A|--3--------3--2--------2--3--------3--2--------2--3--
E|-----------------------------------------------------



E|--------
B|--------
G|--5--4--
D|--5--4--
A|--3--2--
E|--------



E|----------------------------------------------------------------------------------------
B|----------------------------------------------------------------------------------------
G|----------------------------------------------------------------------------------------
D|------------------------------8-------------------------------------------7-------------
A|---------8-------------8--12-----12--8---------------7-------------7--11-----11--7------
E|--8--12-----12--8--12-------------------12----7--11-----11--7--11-------------------11--



E|--------
B|--------
G|--------
D|--4--3--
A|--4--3--
E|--4--3--



E|-----------------------
B|-------------9--10--8--
G|--7--8--6----9--10--8--
D|--7--8--6----7--8---6--
A|--5--6--4--------------
E|-----------------------



E|---------------------------------------------------------
B|---------------------------------------------------------
G|---------9----------------------9------------7-----------
D|------------10--9--7--9------------10--9--7--------------
A|--7--10------------------7--10------------------10-------
E|---------------------------------------------------------



E|-------------------------------------------------------
B|-------------------------------------------------------
G|---------9-------------------7------------9------------
D|------------10--9--7--9--10-----10--9--7-----10--9--7--
A|--7--10------------------------------------------------
E|-------------------------------------------------------



E|-------------------------------------------------------------
B|-------------------------------------------------------------
G|---------10----------------------------10-------------8------
D|-------------11--10--8--10--11-------------11--10--8---------
A|--8--11-------------------------8--11--------------------11--
E|-------------------------------------------------------------



E|-------------------------------------------------------------
B|-------------------------------------------------------------
G|---------10---------------------8-------------10-------------
D|-------------11--10--8--10--11-----11--10--8------11--10--8--
A|--8--11------------------------------------------------------
E|-------------------------------------------------------------



E|--------
B|--------
G|--3--2--
D|--3--2--
A|--3--2--
E|--------
http://www.guitartabcreator.com
Guitar Tab Creator is intended to store guitar tab created through the tool. It currently does not support in-line text editing. Any text you place in here will be lost. If you need to comment on your tab, please use the "Tab Notes" section located below.