Awakening

(/) Slide Up  (\) Slide Down  (h) Hammer On  (p) Pull Off  (b) Bend (r) Release (v) Vibrato

E|--5--5--------------
B|--7--7--3--3--5--5--
G|--------5--5--7--7--
D|--------------------
A|--------------------
E|--------------------



E|--0--3--0--3--0--3--5--5--------------
B|--2--2--2--2--2--2--7--7--3--3--5--5--
G|--2--0--2--0--2--0--------5--5--7--7--
D|--1--0--1--0--1--0--------------------
A|--0--0--0--0--0--0--------------------
E|--0--3--0--3--0--3--------------------



E|--
B|--
G|--
D|--
A|--
E|--
http://www.guitartabcreator.com
Guitar Tab Creator is intended to store guitar tab created through the tool. It currently does not support in-line text editing. Any text you place in here will be lost. If you need to comment on your tab, please use the "Tab Notes" section located below.