Forever - Six60

(/) Slide Up  (\) Slide Down  (h) Hammer On  (p) Pull Off  (b) Bend (r) Release (v) Vibrato


E|----------------------------------------------------------------------------------------
B|----------------------------------------------------------------------------------------
G|----------------------------------------------------------------------------------------
D|-----3--------5--------7-----7-----7-----7------10------10------10----------14----------
A|--5-----5--7-----7--8-----8-----8-----8-----12------12------12------12--15------15--10--
E|----------------------------------------------------------------------------------------



E|-------------------------------------------------------------------------------------------
B|-------------------------------------------------------------------------------------------
G|-------------------------------------------------------------------------------------------
D|--9------9------9------9------14----------12----------10------10------10------10-----2-----
A|-----10-----10-----10-----15------15--14------14--12------12------12------12------3-----3--
E|-------------------------------------------------------------------------------------------



E|-------------------------------------
B|-------------------------------------
G|-------------------------------------
D|------9---------7-----7-----7-----7--
A|--10-----10--8-----8-----8-----8-----
E|-------------------------------------
http://www.guitartabcreator.com
Guitar Tab Creator is intended to store guitar tab created through the tool. It currently does not support in-line text editing. Any text you place in here will be lost. If you need to comment on your tab, please use the "Tab Notes" section located below.