Phantom (ver 2)

(/) Slide Up  (\) Slide Down  (h) Hammer On  (p) Pull Off  (b) Bend (r) Release (v) Vibrato

E|--------------------------------
B|--3--3--3--3--3--3--3--3--3--3--
G|--2--2--2--2--2--2--2--2--2--2--
D|--------------------------------
A|--------------------------------
E|--------------------------------



E|-----------------------------------x-----------
B|-----------------------------------x-----------
G|--10--8--6--4--10--8--6--4--10--8--4--5--7--10b
D|--8---6--4--2--8---6--4--2--8---6--2--3--5--8--
A|-----------------------------------x-----------
E|-----------------------------------x-----------
http://www.guitartabcreator.com
Guitar Tab Creator is intended to store guitar tab created through the tool. It currently does not support in-line text editing. Any text you place in here will be lost. If you need to comment on your tab, please use the "Tab Notes" section located below.