hand-made

(/) Slide Up  (\) Slide Down  (h) Hammer On  (p) Pull Off  (b) Bend (r) Release (v) Vibrato

E|------------------------------------------------------------12-------12-
B|----0----------12----------0---------11---------12----------------12----
G|---------10----------10--------10---------10----------12-------12-------
D|------11----------11---------9----------9----------12----12-------------
A|-12---------12----------11--------11---------12-------------------------
E|------------------------------------------------------------------------



E|-----------------------------------------------
B|----0----------0---------12----------0---------
G|---------10--------10----------12---------10---
D|------11---------9----------12---------11------
A|-12---------11--------12----------12-----------
E|-----------------------------------------------



E|----------------------------
B|----0---------0-------7-----
G|---------10-------8-------7-
D|------11--------7-------7---
A|-12---------9-------7-------
E|----------------------------



E|-----------------------------------------------------------
B|------0--------------0-------------12----------------------
G|-------------10------------10--------------12----------10--
D|---------11------11-----9--------------12----------11------
A|--12---------------------------12--------------12----------
E|-----------------------------------------------------------
http://www.guitartabcreator.com
Guitar Tab Creator is intended to store guitar tab created through the tool. It currently does not support in-line text editing. Any text you place in here will be lost. If you need to comment on your tab, please use the "Tab Notes" section located below.