Harry Potter

(/) Slide Up  (\) Slide Down  (h) Hammer On  (p) Pull Off  (b) Bend (r) Release (v) Vibrato


E|-----0--3--2--0--7--5--2--0--3--2-----1-----
B|--0--------------------------------3-----0--
G|--------------------------------------------
D|--------------------------------------------
A|--------------------------------------------
E|--------------------------------------------



E|-----0--3--2--0--7--10--9--8--5--8--7--6-----3--0--
B|--0---------------------------------------0--------
G|---------------------------------------------------
D|---------------------------------------------------
A|---------------------------------------------------
E|---------------------------------------------------



E|--3--7--3--7--3--8--7--6--6--7--6--5-----3--0--
B|--------------------------------------0--------
G|-----------------------------------------------
D|-----------------------------------------------
A|-----------------------------------------------
E|-----------------------------------------------
http://www.guitartabcreator.com
Guitar Tab Creator is intended to store guitar tab created through the tool. It currently does not support in-line text editing. Any text you place in here will be lost. If you need to comment on your tab, please use the "Tab Notes" section located below.